House Of The Rising Sun

Tabs & lyrics :
House Of The Rising Sun -
The Animals















INTRO
Am C
E---------------0---------------------------------0----------
B------- ----1--------1------------------------1-------1-------
G--------2------------ ----2--------------0----------------0----
D-----2---------------------------- ---2-------------------------
A--0------------------------------3------------ -----------------
E---------------------------------------------------------- -----

D F (barr é)
E--------------2-----------------------------------1-----------
B----- ----3----------3-----------------------1-----------1-----
G-----2------------ ------2---------------2-------------------2-
D--0---------------------------- -----3-------------------------
A-------------------------------------------- ------------------
E--------------------------------------------------------- -----

Am E
E---------------0-----------------------------------------------
B------ -----1--------1---------------------------------0--------
G--------2--------- -------2----------------------1--------1-----
D-----2------------------------ --------------2----------------2-
A--0------------------------------------2-----------------------
E------- -----------------------------0--------------------------

Am E
E---------------0-----------------------------------------------
B-- ---------1--------1---------------------------------0--------
G--------2----- -----------2----------------------1--------1-----
D-----2-------------------- ------------------2----------------2-
A--0------------------------------------2-----------------------
E------- -----------------------------0--------------------------



Am C D F
There is a house in New Orleans,
Am C E7 E7
They call the "Rising Sun",
Am C D F
It ### s been the ruin of many a poor boy,
Am E Am E7
And God, I know, I ### m one.

My mother was a tailor,
she sewed my new blue jeans.
My father was a gamblin ### man,
down in New Orleans.

Now the only thing a gambler needs
is a suitcase and a trunk.
And the only time he ### ll be satisfied
Is when he ### s on a drug.

...Instrumental ...

Oh mother, tell your children,
Not to do what I have done.
Don’t spend your lives in sin and misery
In the house of the Rising Sun.

I ### ve got one foot on the platform,
and the other on the train.
And I ### m going back to New Orleans ,
to wear that ball and chain...

There is a house in New Orleans,
They call the rising sun.
And it ### s been the ruin of many a poor Boy,
and God I know I ### m one


Đăng nhập

Màu thời gian

Không có ảnh

Ai đang xem

Đang có 676 khách và không thành viên đang online